twitter
rss

Aquí tenemos la tablatura de When the Saints go marching in para aprender con nuestra guitarra. En la tonalidad de Sol Mayor.
Fuente: tabs.ultimate-guitar.com
 
La tocaremos los alumnos/as de primero de ESO. A disfrutarla.


e|-----------------------------------------------
b|---0-1-3----0-1-3-----0-1-3-0---0--------------
G|-0--------0---------0---------0---2------------
D|-----------------------------------------------
A|-----------------------------------------------
E|-----------------------------------------------


e|-----------------------------------------------
b|--0-0---------0--3--3-1--1--0--1--3--0---------
G|------2-0---0---------------------------2-2--0-
D|-----------------------------------------------
A|-----------------------------------------------
E|-----------------------------------------------
 
 

ShareThis